:: Guitar & Bass Tabs Make Home Page
A B C D E F G H I J K L M N O P Q R S T U V W X Y Z #

  for    

On TABSPACE
Info About This Tab
Artist: Misc Television
Tab Type: Guitar
Difficulty: intermediate
Tuning: Half-Step Down
Rate This Tab!
#----------------------------------PLEASE NOTE---------------------------------#
#This file is the author's own work and represents their interpretation of the #
#song. You may only use this file for private study, scholarship, or research. #
#------------------------------------------------------------------------------##

                                    NWO THEME
                           

Transcribed by Brian Murtagh

Gtr I (Eb Ab Db Gb Bb Eb) - 'Distorted Guitar'
Gtr II (Eb Ab Db Gb Bb Eb) - 'Clean Guitar'

These are the collection of riffs you will need to play this.
Any questions then write me at lunchboxattacks@gmai.com



 Riff 1
  Moderately Slow Rock Q=80
  Gtr I
  S S  S  a  S  S E     +s  S S  S  a S S E     +S
|---------------------------------------------------|
|-----------------------------------5---------------|
|---------5h=7----5b5.5-(5)---------5h7---5b5.5-(5)-|
|-----------(7)-------------------------------------|
|-7---(7)-------------------5---(5)-----------------|
|---8p=5----------------------8p=5------------------|


  S S  S  a S S E     +s  S S  S  a S S E     +S
|-------------------------------------------------|
|---------------------------------5---------------|
|---------5h7---5b5.5-(5)---------5h7---5b5.5-(5)-|
|---------5h7-------------------------------------|
|-7---(7)-----------------5---(5)-----------------|
|---8p=5--------------------8p=5------------------|


   Riff 2
    Gtr II
    a  E  S a  S   +S  E S a  E  S a  S   +S  E S
||------------------------------------------------|
||o-6-(6)-x-6-(6)--(6)-6-x-6-(6)-x-6-(6)--(6)-6-x-|
||--8h10--x-8h10--(10)-8-x-8h10--x-8h10--(10)-8-x-|
||------------------------------------------------|
||o-----------------------------------------------|
||------------------------------------------------|


 1.
  a  E  S a  S   +S  E S a  E  S a  S   +S  E S
|-------------------------------------------------||
|-6-(6)-x-6-(6)--(6)-6-x-6-(6)-x-6-(6)--(6)-6-x--o||
|-8h10--x-8h10--(10)-8-x-8h10--x-8h10--(10)-8-x---||
|-------------------------------------------------||
|------------------------------------------------o||
|-------------------------------------------------||


  2.                                            E.=80
                                                 9/16
  Gtr II                                        Gtr I
                                                    |3| |-3-| |-3-|
  a  E  S a  S   +S  E S a  E  S a  S   +S  E S   S S E E E E S S S
|-----------------------------------------------|-------------------|
|-6-(6)-x-6-(6)--(6)-6-x-6-(6)-x-6-(6)--(6)-6-x-|-------------------|
|-8h10--x-8h10--(10)-8-x-8h10--x-8h10--(10)-8-x-|-------------------|
|-----------------------------------------------|-6-5---3-----------|
|-----------------------------------------------|-----6---4-6-3-4-6-|
|-----------------------------------------------|-------------------|


   Riff 3
    Q=80            1.,2.,3.
   4/4
    Gtr II
       ~~~    ~~        ~~~    ~~
    E  Q.   E Q.     E  Q.   E Q.   4x
||-----------------|----------------||
||o----------------|---------------o||
||----10------8----|---10------8----||
||-----------------|----------------||
||o----------------|---------------o||
||-----------------|----------------||


  4.80
 4/4              9/16
  Gtr II
     ~~~    ~~
                     |3| |-3-| |-3-|
  E  Q.   E Q.     S S E E E E S S S
|----------------|-------------------|
|----------------|-------------------|
|---10------8----|-------------------|
|----------------|-6-5---3-----------|
|----------------|-----6---4-6-3-4-6-|
|----------------|-------------------|


 Riff 4
 4/4
  Gtr I
           ~~~~~~~~~                    ~~~
   E      +S   +s   S    S.   S    S.   E.       Q
|--7------(7)--(7)--6----6----6---------4-----------------|
|-10b12==(10)-(10)r-9b11-9b11-9b11------7b9---------------|
|---------------------------------------------------------|
|---------------------------------------------------------|
|---------------------------------------------------------|
|---------------------------------------------------------|
|
| Gtr II
|                                                   |-3-|
|  H                                  E     a  E E  S S S
|---------------------------------------------------------|
|-------------------------------------------6--6-6--------|
|-------------------------------------------8h10-8--------|
|--------------------------------------------------10s8s6-|
|---------------------------------------------------------|
|---------------------------------------------------------|


           ~~~~~~~~~                    ~~~
   E      +S   +s   S    S.   S    S.   E.       Q
|--7------(7)--(7)--6----6----6---------4-----------------|
|-10b12==(10)-(10)r-9b11-9b11-9b11------7b9---------------|
|---------------------------------------------------------|
|---------------------------------------------------------|
|---------------------------------------------------------|
|---------------------------------------------------------|
|
|                                                   |-3-|
|  H                                  E     a  E E  S S S
|---------------------------------------------------------|
|-------------------------------------------6--6-6--------|
|-------------------------------------------8h10-8--------|
|--------------------------------------------------10s8s6-|
|---------------------------------------------------------|
|---------------------------------------------------------|


 End Section
                    Q=60
 9/16                4/4
    |3| |-3-| |-3-|     |3| |-3-| |-3-|
  S S E E E E S S S   S S E E E E S S S +E. Q    q  H.
|-------------------|--------------------------|----------*|
|-------------------|--------------------------|----------*|
|-------------------|--------------------------|----------*|
|-6-5---3-----------|-6-5---3------------------|-6--------*|
|-----6---4-6-3-4-6-|-----6---4-6-3-4-6-(6)-3--|-8--------*|
|-------------------|--------------------------|-8--------*|


Duration Legend
---------------
W - whole; H - half; Q - quarter; E - 8th; S - 16th; T - 32nd; X - 64th; a - acciaccatura
+ - note tied to previous; . - note dotted; .. - note double dotted
Uncapitalized letters represent notes that are staccato (1/2 duration)
Irregular groupings are notated above the duration line
Duration letters will always appear directly above the note/fret number it represents the
duration for.  Duration letters with no fret number below them represent rests.  Multi-
bar rests are notated in the form Wxn, where n is the number of bars to rest for.  Low
melody durations appear below the staff

Tablature Legend
----------------
 h   - hammer-on
 p   - pull-off
 b   - bend
 pb  - pre-bend
 r   - bend release (if no number after the r, then release immediately)
 /\  - slide into or out of (from/to "nowhere")
 s   - legato slide
 S   - shift slide
  - natural harmonic
[n]  - artificial harmonic
n(n) - tapped harmonic
 ~   - vibrato
 tr  - trill
 T   - tap
 TP  - trem. picking
 PM  - palm muting
\n/  - tremolo bar dip; n = amount to dip
 \n  - tremolo bar down
 n/  - tremolo bar up
/n\  - tremolo bar inverted dip
 =   - hold bend; also acts as connecting device for hammers/pulls
 <>  - volume swell (louder/softer)
 x   - on rhythm slash represents muted slash
 o   - on rhythm slash represents single note slash

Misc Legend
-----------
 |  - bar
||  - double bar
||o - repeat start
o|| - repeat end
*|  - double bar (ending)
 :  - bar (freetime)
 $  - Segno
 &  - Coda
Tempo markers -  = BPM(8/16=s8/s16), where s8 = swing 8ths, s16 = swing 16ths





Share "Wwf - Nwo Theme" by Misc Television


TOP 10 TABS

FRESH NEW TABS

ALL ARTISTS
artist wiki

mp3bear.com
song lyrics / contact us / privacy policy / tabspace toolbar
Copyright 2004 - 2014 TabSpace.com - All Rights Reserved.
song: wwf - nwo theme guitar tabs by misc television

0.037