:: Guitar & Bass Tabs Make Home Page
A B C D E F G H I J K L M N O P Q R S T U V W X Y Z #

  for    

On TABSPACE
Info About This Tab
Artist: Hard-fi
Tab Type: Guitar
Difficulty: novice
Rate This Tab!
this tab was made by me (jamie) and adam we spent just a few minutes minutes on it but
think that with the bass and guitar together it sounds quite good. the lyrics are not
bad either. i am the the bassist if you were wondering and adam plays guitar and he made 
of the bass tab. i hope you like it


b=bend


Intro:

e|-----------------------------------------------------------------------------|
b|-----------------------------------------------------------------------------|
g|-----------------------------------------------------------------------------|
d|--7-7-7-7-7-7-7----9-9-9-9-9-9-9----11-11-11-11-11-11-11---------------------|
a|--7-7-7-7-7-7-7----7-7-7-7-7-7-7-----9---9---9---9---9---9---9---------------|
E|-----------------------------------------------------------------------------|

E|-----------------------------------------------------------------------------|
B|-----------------------------------------------------------------------------|
G|-----------------------------------------------------------------------------|
D|--7-7---9-9---11-11----------------------------------------------------------|
A|--7-7---7-7---9---9----------------------------------------------------------|
e|-----------------------------------------------------------------------------|
                                                                             x4

Verse

E|---------------------------------------------------------------------|
B|---------------------------------------------------------------------|
G|---------------------------------------------------------------------|
D|-------7-------------------------7-----------------5-7---------------|
A|-----5----7-5----------------5-----7-------5-7--------5-7--b7--------|
E|--7------------------------7-------------7---------------------------|

Chorus:

E|--0--0-----0---0--|
B|--1--1-----1---1--|
G|--2--2-----2---0--|
D|--2--2-----2---2--|
A|--0--0-----0---3--|
E|--x--x-----x--x---|


repeat verse then do chorus twice


Share "You And Her" by Hard-fi


TOP 10 TABS

FRESH NEW TABS

ALL ARTISTS
artist wiki

mp3bear.com
song lyrics / contact us / privacy policy / tabspace toolbar
Copyright 2004 - 2014 TabSpace.com - All Rights Reserved.
song: you and her guitar tabs by hard-fi

0.011